  0
SECTION
  2
HEADER
  9
$ACADVER
  1
AC1015
  9
$ACADMAINTVER
 70
     6
  9
$DWGCODEPAGE
  3
ANSI_1254
  9
$INSBASE
 10
0.0
 20
0.0
 30
0.0
  9
$EXTMIN
 10
0.0
 20
0.0
 30
0.0
  9
$EXTMAX
 10
279.4
 20
215.9
 30
0.0
  9
$LIMMIN
 10
0.0
 20
0.0
  9
$LIMMAX
 10
279.4
 20
215.9
  9
$ORTHOMODE
 70
     0
  9
$REGENMODE
 70
     1
  9
$FILLMODE
 70
     1
  9
$QTEXTMODE
 70
     0
  9
$MIRRTEXT
 70
     1
  9
$LTSCALE
 40
1.0
  9
$ATTMODE
 70
     1
  9
$TEXTSIZE
 40
3.5
  9
$TRACEWID
 40
1.0
  9
$TEXTSTYLE
  7
Standard
  9
$CLAYER
  8
0
  9
$CELTYPE
  6
ByLayer
  9
$CECOLOR
 62
   256
  9
$CELTSCALE
 40
1.0
  9
$DISPSILH
 70
     0
  9
$DIMSCALE
 40
1.0
  9
$DIMASZ
 40
3.5
  9
$DIMEXO
 40
1.0
  9
$DIMDLI
 40
3.75
  9
$DIMRND
 40
0.0
  9
$DIMDLE
 40
0.0
  9
$DIMEXE
 40
1.0
  9
$DIMTP
 40
0.0
  9
$DIMTM
 40
0.0
  9
$DIMTXT
 40
3.5
  9
$DIMCEN
 40
2.5
  9
$DIMTSZ
 40
0.0
  9
$DIMTOL
 70
     0
  9
$DIMLIM
 70
     0
  9
$DIMTIH
 70
     1
  9
$DIMTOH
 70
     1
  9
$DIMSE1
 70
     0
  9
$DIMSE2
 70
     0
  9
$DIMTAD
 70
     1
  9
$DIMZIN
 70
     0
  9
$DIMBLK
  1

  9
$DIMASO
 70
     1
  9
$DIMSHO
 70
     1
  9
$DIMPOST
  1

  9
$DIMAPOST
  1

  9
$DIMALT
 70
     0
  9
$DIMALTD
 70
     3
  9
$DIMALTF
 40
0.0393700787
  9
$DIMLFAC
 40
1.0
  9
$DIMTOFL
 70
     1
  9
$DIMTVP
 40
0.0
  9
$DIMTIX
 70
     0
  9
$DIMSOXD
 70
     0
  9
$DIMSAH
 70
     0
  9
$DIMBLK1
  1

  9
$DIMBLK2
  1

  9
$DIMSTYLE
  2
ISO-25
  9
$DIMCLRD
 70
     0
  9
$DIMCLRE
 70
     0
  9
$DIMCLRT
 70
     0
  9
$DIMTFAC
 40
1.0
  9
$DIMGAP
 40
1.524
  9
$DIMJUST
 70
     0
  9
$DIMSD1
 70
     0
  9
$DIMSD2
 70
     0
  9
$DIMTOLJ
 70
     0
  9
$DIMTZIN
 70
     0
  9
$DIMALTZ
 70
     0
  9
$DIMALTTZ
 70
     0
  9
$DIMUPT
 70
     0
  9
$DIMDEC
 70
     2
  9
$DIMTDEC
 70
     2
  9
$DIMALTU
 70
     2
  9
$DIMALTTD
 70
     3
  9
$DIMTXSTY
  7
Standard
  9
$DIMAUNIT
 70
     0
  9
$DIMADEC
 70
     2
  9
$DIMALTRND
 40
0.0
  9
$DIMAZIN
 70
     0
  9
$DIMDSEP
 70
    44
  9
$DIMATFIT
 70
     3
  9
$DIMFRAC
 70
     0
  9
$DIMLDRBLK
  1

  9
$DIMLUNIT
 70
     2
  9
$DIMLWD
 70
    -2
  9
$DIMLWE
 70
    -2
  9
$DIMTMOVE
 70
     0
  9
$LUNITS
 70
     2
  9
$LUPREC
 70
     2
  9
$SKETCHINC
 40
1.0
  9
$FILLETRAD
 40
10.0
  9
$AUNITS
 70
     0
  9
$AUPREC
 70
     2
  9
$MENU
  1
.
  9
$ELEVATION
 40
0.0
  9
$PELEVATION
 40
0.0
  9
$THICKNESS
 40
0.0
  9
$LIMCHECK
 70
     0
  9
$CHAMFERA
 40
0.0
  9
$CHAMFERB
 40
0.0
  9
$CHAMFERC
 40
0.0
  9
$CHAMFERD
 40
0.0
  9
$SKPOLY
 70
     0
  9
$TDCREATE
 40
2458985.690457037
  9
$TDUCREATE
 40
2458985.565457037
  9
$TDUPDATE
 40
2458985.690457419
  9
$TDUUPDATE
 40
2458985.565457419
  9
$TDINDWG
 40
0.0000000116
  9
$TDUSRTIMER
 40
0.0000000116
  9
$USRTIMER
 70
     1
  9
$ANGBASE
 50
0.0
  9
$ANGDIR
 70
     0
  9
$PDMODE
 70
     0
  9
$PDSIZE
 40
-1.0
  9
$PLINEWID
 40
0.0
  9
$SPLFRAME
 70
     0
  9
$SPLINETYPE
 70
     6
  9
$SPLINESEGS
 70
     8
  9
$HANDSEED
  5
CB
  9
$SURFTAB1
 70
     6
  9
$SURFTAB2
 70
     6
  9
$SURFTYPE
 70
     6
  9
$SURFU
 70
     6
  9
$SURFV
 70
     6
  9
$UCSBASE
  2

  9
$UCSNAME
  2

  9
$UCSORG
 10
0.0
 20
0.0
 30
0.0
  9
$UCSXDIR
 10
1.0
 20
0.0
 30
0.0
  9
$UCSYDIR
 10
0.0
 20
1.0
 30
0.0
  9
$UCSORTHOREF
  2

  9
$UCSORTHOVIEW
 70
     0
  9
$UCSORGTOP
 10
0.0
 20
0.0
 30
0.0
  9
$UCSORGBOTTOM
 10
0.0
 20
0.0
 30
0.0
  9
$UCSORGLEFT
 10
0.0
 20
0.0
 30
0.0
  9
$UCSORGRIGHT
 10
0.0
 20
0.0
 30
0.0
  9
$UCSORGFRONT
 10
0.0
 20
0.0
 30
0.0
  9
$UCSORGBACK
 10
0.0
 20
0.0
 30
0.0
  9
$PUCSBASE
  2

  9
$PUCSNAME
  2

  9
$PUCSORG
 10
0.0
 20
0.0
 30
0.0
  9
$PUCSXDIR
 10
1.0
 20
0.0
 30
0.0
  9
$PUCSYDIR
 10
0.0
 20
1.0
 30
0.0
  9
$PUCSORTHOREF
  2

  9
$PUCSORTHOVIEW
 70
     0
  9
$PUCSORGTOP
 10
0.0
 20
0.0
 30
0.0
  9
$PUCSORGBOTTOM
 10
0.0
 20
0.0
 30
0.0
  9
$PUCSORGLEFT
 10
0.0
 20
0.0
 30
0.0
  9
$PUCSORGRIGHT
 10
0.0
 20
0.0
 30
0.0
  9
$PUCSORGFRONT
 10
0.0
 20
0.0
 30
0.0
  9
$PUCSORGBACK
 10
0.0
 20
0.0
 30
0.0
  9
$USERI1
 70
     0
  9
$USERI2
 70
     0
  9
$USERI3
 70
     0
  9
$USERI4
 70
     0
  9
$USERI5
 70
     0
  9
$USERR1
 40
0.0
  9
$USERR2
 40
0.0
  9
$USERR3
 40
0.0
  9
$USERR4
 40
0.0
  9
$USERR5
 40
0.0
  9
$WORLDVIEW
 70
     1
  9
$SHADEDGE
 70
     3
  9
$SHADEDIF
 70
    70
  9
$TILEMODE
 70
     1
  9
$MAXACTVP
 70
    64
  9
$PINSBASE
 10
0.0
 20
0.0
 30
0.0
  9
$PLIMCHECK
 70
     0
  9
$PEXTMIN
 10
1.0000000000E+20
 20
1.0000000000E+20
 30
1.0000000000E+20
  9
$PEXTMAX
 10
-1.0000000000E+20
 20
-1.0000000000E+20
 30
-1.0000000000E+20
  9
$PLIMMIN
 10
0.0
 20
0.0
  9
$PLIMMAX
 10
420.0
 20
297.0
  9
$UNITMODE
 70
     0
  9
$VISRETAIN
 70
     1
  9
$PLINEGEN
 70
     0
  9
$PSLTSCALE
 70
     1
  9
$TREEDEPTH
 70
  3020
  9
$CMLSTYLE
  2
Standard
  9
$CMLJUST
 70
     0
  9
$CMLSCALE
 40
20.0
  9
$PROXYGRAPHICS
 70
     1
  9
$MEASUREMENT
 70
     1
  9
$CELWEIGHT
370
    -1
  9
$ENDCAPS
280
     0
  9
$JOINSTYLE
280
     0
  9
$LWDISPLAY
290
     1
  9
$INSUNITS
 70
     4
  9
$HYPERLINKBASE
  1

  9
$STYLESHEET
  1

  9
$XEDIT
290
     1
  9
$CEPSNTYPE
380
     0
  9
$PSTYLEMODE
290
     1
  9
$FINGERPRINTGUID
  2
{82b8e9bf-4d6a-4d59-8245-f8caa3bea6c6}
  9
$VERSIONGUID
  2
{FAEB1C32-E019-11D5-929B-00C0DF256EC4}
  9
$EXTNAMES
290
     1
  9
$PSVPSCALE
 40
0.0
  9
$OLESTARTUP
290
     0
  0
ENDSEC
  0
SECTION
  2
CLASSES
  0
CLASS
  1
ACDBDICTIONARYWDFLT
  2
AcDbDictionaryWithDefault
  3
ObjectDBX Classes
 90
        0
280
     0
281
     0
  0
CLASS
  1
VISUALSTYLE
  2
AcDbVisualStyle
  3
ObjectDBX Classes
 90
     4095
280
     0
281
     0
  0
CLASS
  1
MATERIAL
  2
AcDbMaterial
  3
ObjectDBX Classes
 90
     1153
280
     0
281
     0
  0
CLASS
  1
SCALE
  2
AcDbScale
  3
ObjectDBX Classes
 90
     1153
280
     0
281
     0
  0
CLASS
  1
TABLESTYLE
  2
AcDbTableStyle
  3
ObjectDBX Classes
 90
     4095
280
     0
281
     0
  0
CLASS
  1
MLEADERSTYLE
  2
AcDbMLeaderStyle
  3
ACDB_MLEADERSTYLE_CLASS
 90
     4095
280
     0
281
     0
  0
CLASS
  1
SUN
  2
AcDbSun
  3
SCENEOE
 90
     1153
280
     0
281
     0
  0
CLASS
  1
ACDBPLACEHOLDER
  2
AcDbPlaceHolder
  3
ObjectDBX Classes
 90
        0
280
     0
281
     0
  0
CLASS
  1
LAYOUT
  2
AcDbLayout
  3
ObjectDBX Classes
 90
        0
280
     0
281
     0
  0
ENDSEC
  0
SECTION
  2
TABLES
  0
TABLE
  2
VPORT
  5
8
330
0
100
AcDbSymbolTable
 70
     1
  0
VPORT
  5
29
330
8
100
AcDbSymbolTableRecord
100
AcDbViewportTableRecord
  2
*Active
 70
     0
 10
0.0
 20
0.0
 11
1.0
 21
1.0
 12
139.7
 22
107.95
 13
0.0
 23
0.0
 14
10.0
 24
10.0
 15
10.0
 25
10.0
 16
0.0
 26
0.0
 36
1.0
 17
0.0
 27
0.0
 37
0.0
 40
215.9
 41
1.2941176471
 42
50.0
 43
0.0
 44
0.0
 50
0.0
 51
0.0
 71
     0
 72
  2000
 73
     1
 74
     3
 75
     0
 76
     0
 77
     0
 78
     0
281
     0
 65
     1
110
0.0
120
0.0
130
0.0
111
1.0
121
0.0
131
0.0
112
0.0
122
1.0
132
0.0
 79
     0
146
0.0
  0
ENDTAB
  0
TABLE
  2
LTYPE
  5
5
330
0
100
AcDbSymbolTable
 70
     6
  0
LTYPE
  5
14
330
5
100
AcDbSymbolTableRecord
100
AcDbLinetypeTableRecord
  2
ByBlock
 70
     0
  3

 72
    65
 73
     0
 40
0.0
  0
LTYPE
  5
15
330
5
100
AcDbSymbolTableRecord
100
AcDbLinetypeTableRecord
  2
ByLayer
 70
     0
  3

 72
    65
 73
     0
 40
0.0
  0
LTYPE
  5
16
330
5
100
AcDbSymbolTableRecord
100
AcDbLinetypeTableRecord
  2
Continuous
 70
     0
  3
Solid line
 72
    65
 73
     0
 40
0.0
  0
LTYPE
  5
6E
330
5
100
AcDbSymbolTableRecord
100
AcDbLinetypeTableRecord
  2
HIDDEN
 70
     0
  3
Hidden __ __ __ __ __ __ __ __ __ __ __ __ __ __
 72
    65
 73
     2
 40
1.905
 49
1.27
 74
     0
 49
-0.635
 74
     0
  0
LTYPE
  5
6F
330
5
100
AcDbSymbolTableRecord
100
AcDbLinetypeTableRecord
  2
PHANTOM
 70
     0
  3
Phantom ______  __  __  ______  __  __  ______
 72
    65
 73
     6
 40
12.7
 49
6.35
 74
     0
 49
-1.27
 74
     0
 49
1.27
 74
     0
 49
-1.27
 74
     0
 49
1.27
 74
     0
 49
-1.27
 74
     0
  0
LTYPE
  5
70
330
5
100
AcDbSymbolTableRecord
100
AcDbLinetypeTableRecord
  2
CENTER
 70
     0
  3
Center ____ _ ____ _ ____ _ ____ _ ____ _ ____
 72
    65
 73
     4
 40
10.16
 49
6.35
 74
     0
 49
-1.27
 74
     0
 49
1.27
 74
     0
 49
-1.27
 74
     0
  0
LTYPE
  5
71
330
5
100
AcDbSymbolTableRecord
100
AcDbLinetypeTableRecord
  2
CENTERX2
 70
     0
  3
Center (2x) ________  __  ________  __  _____
 72
    65
 73
     4
 40
20.32
 49
12.7
 74
     0
 49
-2.54
 74
     0
 49
2.54
 74
     0
 49
-2.54
 74
     0
  0
LTYPE
  5
72
330
5
100
AcDbSymbolTableRecord
100
AcDbLinetypeTableRecord
  2
DOT2
 70
     0
  3
Dot (.5x) ........................................
 72
    65
 73
     2
 40
0.635
 49
0.0
 74
     0
 49
-0.635
 74
     0
  0
ENDTAB
  0
TABLE
  2
LAYER
  5
2
330
0
100
AcDbSymbolTable
 70
    17
  0
LAYER
  5
10
330
2
100
AcDbSymbolTableRecord
100
AcDbLayerTableRecord
  2
0
 70
     0
 62
     7
  6
Continuous
370
    -3
390
F
  0
LAYER
  5
73
330
2
100
AcDbSymbolTableRecord
100
AcDbLayerTableRecord
  2
FORMAT
 70
     0
 62
     7
  6
Continuous
370
    -3
390
F
  0
LAYER
  5
74
330
2
100
AcDbSymbolTableRecord
100
AcDbLayerTableRecord
  2
YARDIMCI_GEOMETRI
 70
     0
 62
    -6
  6
Continuous
290
     0
370
    -3
390
F
  0
LAYER
  5
75
330
2
100
AcDbSymbolTableRecord
100
AcDbLayerTableRecord
  2
SAYFA_CERCEVESI
 70
     0
 62
     7
  6
Continuous
370
    25
390
F
  0
LAYER
  5
76
330
2
100
AcDbSymbolTableRecord
100
AcDbLayerTableRecord
  2
ANTET
 70
     0
 62
     7
  6
Continuous
370
    -3
390
F
  0
LAYER
  5
77
330
2
100
AcDbSymbolTableRecord
100
AcDbLayerTableRecord
  2
OLCU
 70
     0
 62
   150
  6
Continuous
370
    -3
390
F
  0
LAYER
  5
78
330
2
100
AcDbSymbolTableRecord
100
AcDbLayerTableRecord
  2
METIN
 70
     0
 62
    96
  6
Continuous
370
    -3
390
F
  0
LAYER
  5
79
330
2
100
AcDbSymbolTableRecord
100
AcDbLayerTableRecord
  2
BALON
 70
     0
 62
     5
  6
Continuous
370
    -3
390
F
  0
LAYER
  5
7A
330
2
100
AcDbSymbolTableRecord
100
AcDbLayerTableRecord
  2
VURGU
 70
     0
 62
     7
  6
Continuous
370
    -3
390
F
  0
LAYER
  5
7B
330
2
100
AcDbSymbolTableRecord
100
AcDbLayerTableRecord
  2
SILIK
 70
     0
 62
     7
  6
Continuous
370
    -3
390
F
  0
LAYER
  5
7C
330
2
100
AcDbSymbolTableRecord
100
AcDbLayerTableRecord
  2
MODEL
 70
     0
 62
     7
  6
Continuous
370
    -3
390
F
  0
LAYER
  5
7D
330
2
100
AcDbSymbolTableRecord
100
AcDbLayerTableRecord
  2
DETAYLANDıRMA
 70
     0
 62
   190
  6
Continuous
370
    -3
390
F
  0
LAYER
  5
7E
330
2
100
AcDbSymbolTableRecord
100
AcDbLayerTableRecord
  2
TOLERANS
 70
     0
 62
   230
  6
Continuous
370
    -3
390
F
  0
LAYER
  5
7F
330
2
100
AcDbSymbolTableRecord
100
AcDbLayerTableRecord
  2
MERKEZ_CIZGILERI
 70
     0
 62
    30
  6
Continuous
370
    -3
390
F
  0
LAYER
  5
80
330
2
100
AcDbSymbolTableRecord
100
AcDbLayerTableRecord
  2
KESIT-DETAY_CIZGILERI
 70
     0
 62
     7
  6
Continuous
370
    -3
390
F
  0
LAYER
  5
81
330
2
100
AcDbSymbolTableRecord
100
AcDbLayerTableRecord
  2
\U+041E\U+0421\U+0415\U+0412\U+042B\U+0415
 70
     0
 62
     7
  6
Continuous
370
    -3
390
F
  0
LAYER
  5
82
330
2
100
AcDbSymbolTableRecord
100
AcDbLayerTableRecord
  2
\U+0412\U+041E\U+0414\U+042F\U+041D\U+042B\U+0415_\U+0417\U+041D\U+0410\U+041A\U+0418
 70
     0
 62
    11
  6
Continuous
370
    -3
390
F
  0
ENDTAB
  0
TABLE
  2
STYLE
  5
3
330
0
100
AcDbSymbolTable
 70
     1
  0
STYLE
  5
11
330
3
100
AcDbSymbolTableRecord
100
AcDbTextStyleTableRecord
  2
Standard
 70
     0
 40
0.0
 41
1.0
 50
0.0
 71
     0
 42
3.5
  3
txt
  4

  0
ENDTAB
  0
TABLE
  2
VIEW
  5
6
330
0
100
AcDbSymbolTable
 70
     0
  0
ENDTAB
  0
TABLE
  2
UCS
  5
7
330
0
100
AcDbSymbolTable
 70
     0
  0
ENDTAB
  0
TABLE
  2
APPID
  5
9
330
0
100
AcDbSymbolTable
 70
     1
  0
APPID
  5
12
330
9
100
AcDbSymbolTableRecord
100
AcDbRegAppTableRecord
  2
ACAD
 70
     0
  0
ENDTAB
  0
TABLE
  2
DIMSTYLE
  5
A
330
0
100
AcDbSymbolTable
 70
     1
100
AcDbDimStyleTable
  0
DIMSTYLE
105
27
330
A
100
AcDbSymbolTableRecord
100
AcDbDimStyleTableRecord
  2
ISO-25
 70
     0
 41
2.5
 42
0.625
 43
3.75
 44
1.25
 73
     0
 74
     0
 77
     1
 78
     8
140
2.5
141
2.5
143
0.0393700787
147
0.625
171
     3
172
     1
178
     0
271
     2
272
     2
274
     3
278
    44
283
     0
284
     8
340
11
  0
ENDTAB
  0
TABLE
  2
BLOCK_RECORD
  5
1
330
0
100
AcDbSymbolTable
 70
     3
  0
BLOCK_RECORD
  5
1F
330
1
100
AcDbSymbolTableRecord
100
AcDbBlockTableRecord
  2
*Model_Space
340
22
  0
BLOCK_RECORD
  5
1B
330
1
100
AcDbSymbolTableRecord
100
AcDbBlockTableRecord
  2
*Paper_Space
340
1E
  0
BLOCK_RECORD
  5
23
330
1
100
AcDbSymbolTableRecord
100
AcDbBlockTableRecord
  2
*Paper_Space0
340
26
  0
BLOCK_RECORD
  5
88
330
1
100
AcDbSymbolTableRecord
100
AcDbBlockTableRecord
  2
SW_CENTERMARKSYMBOL_0
340
0
102
{BLKREFS
331
93
102
}
  0
BLOCK_RECORD
  5
9C
330
1
100
AcDbSymbolTableRecord
100
AcDbBlockTableRecord
  2
SW_CENTERMARKSYMBOL_1
340
0
102
{BLKREFS
331
A7
102
}
  0
ENDTAB
  0
ENDSEC
  0
SECTION
  2
BLOCKS
  0
BLOCK
  5
20
330
1F
100
AcDbEntity
  8
0
100
AcDbBlockBegin
  2
*Model_Space
 70
     0
 10
0.0
 20
0.0
 30
0.0
  3
*Model_Space
  1

  0
ENDBLK
  5
21
330
1F
100
AcDbEntity
  8
0
100
AcDbBlockEnd
  0
BLOCK
  5
1C
330
1B
100
AcDbEntity
 67
     1
  8
0
100
AcDbBlockBegin
  2
*Paper_Space
 70
     0
 10
0.0
 20
0.0
 30
0.0
  3
*Paper_Space
  1

  0
ENDBLK
  5
1D
330
1B
100
AcDbEntity
 67
     1
  8
0
100
AcDbBlockEnd
  0
BLOCK
  5
24
330
23
100
AcDbEntity
  8
0
100
AcDbBlockBegin
  2
*Paper_Space0
 70
     0
 10
0.0
 20
0.0
 30
0.0
  3
*Paper_Space0
  1

  0
ENDBLK
  5
25
330
23
100
AcDbEntity
  8
0
100
AcDbBlockEnd
  0
BLOCK
  5
89
330
88
100
AcDbEntity
  8
0
100
AcDbBlockBegin
  2
SW_CENTERMARKSYMBOL_0
 70
     0
 10
0.0
 20
0.0
 30
0.0
  3
SW_CENTERMARKSYMBOL_0
  1

  0
LINE
  5
8B
330
88
100
AcDbEntity
  8
FORMAT
 62
     0
100
AcDbLine
 10
0.0
 20
0.0
 30
0.0
 11
2.5
 21
0.0
 31
0.0
  0
LINE
  5
8C
330
88
100
AcDbEntity
  8
FORMAT
 62
     0
100
AcDbLine
 10
0.0
 20
0.0
 30
0.0
 11
0.0
 21
2.5
 31
0.0
  0
LINE
  5
8D
330
88
100
AcDbEntity
  8
FORMAT
 62
     0
100
AcDbLine
 10
0.0
 20
0.0
 30
0.0
 11
-2.5
 21
0.0
 31
0.0
  0
LINE
  5
8E
330
88
100
AcDbEntity
  8
FORMAT
 62
     0
100
AcDbLine
 10
0.0
 20
0.0
 30
0.0
 11
0.0
 21
-2.5
 31
0.0
  0
LINE
  5
8F
330
88
100
AcDbEntity
  8
FORMAT
 62
     0
100
AcDbLine
 10
5.0
 20
0.0
 30
0.0
 11
57.5
 21
0.0
 31
0.0
  0
LINE
  5
90
330
88
100
AcDbEntity
  8
FORMAT
 62
     0
100
AcDbLine
 10
0.0
 20
5.0
 30
0.0
 11
0.0
 21
57.5
 31
0.0
  0
LINE
  5
91
330
88
100
AcDbEntity
  8
FORMAT
 62
     0
100
AcDbLine
 10
-5.0
 20
0.0
 30
0.0
 11
-57.5
 21
0.0
 31
0.0
  0
LINE
  5
92
330
88
100
AcDbEntity
  8
FORMAT
 62
     0
100
AcDbLine
 10
0.0
 20
-5.0
 30
0.0
 11
0.0
 21
-57.5
 31
0.0
  0
ENDBLK
  5
8A
330
88
100
AcDbEntity
  8
0
100
AcDbBlockEnd
  0
BLOCK
  5
9D
330
9C
100
AcDbEntity
  8
0
100
AcDbBlockBegin
  2
SW_CENTERMARKSYMBOL_1
 70
     0
 10
0.0
 20
0.0
 30
0.0
  3
SW_CENTERMARKSYMBOL_1
  1

  0
LINE
  5
9F
330
9C
100
AcDbEntity
  8
FORMAT
 62
     0
100
AcDbLine
 10
0.0
 20
0.0
 30
0.0
 11
0.0
 21
2.5
 31
0.0
  0
LINE
  5
A0
330
9C
100
AcDbEntity
  8
FORMAT
 62
     0
100
AcDbLine
 10
0.0
 20
0.0
 30
0.0
 11
-2.5
 21
0.0
 31
0.0
  0
LINE
  5
A1
330
9C
100
AcDbEntity
  8
FORMAT
 62
     0
100
AcDbLine
 10
0.0
 20
0.0
 30
0.0
 11
0.0
 21
-2.5
 31
0.0
  0
LINE
  5
A2
330
9C
100
AcDbEntity
  8
FORMAT
 62
     0
100
AcDbLine
 10
0.0
 20
0.0
 30
0.0
 11
2.5
 21
0.0
 31
0.0
  0
LINE
  5
A3
330
9C
100
AcDbEntity
  8
FORMAT
 62
     0
100
AcDbLine
 10
0.0
 20
5.0
 30
0.0
 11
0.0
 21
34.0
 31
0.0
  0
LINE
  5
A4
330
9C
100
AcDbEntity
  8
FORMAT
 62
     0
100
AcDbLine
 10
-5.0
 20
0.0
 30
0.0
 11
-34.0
 21
0.0
 31
0.0
  0
LINE
  5
A5
330
9C
100
AcDbEntity
  8
FORMAT
 62
     0
100
AcDbLine
 10
0.0
 20
-5.0
 30
0.0
 11
0.0
 21
-34.0
 31
0.0
  0
LINE
  5
A6
330
9C
100
AcDbEntity
  8
FORMAT
 62
     0
100
AcDbLine
 10
5.0
 20
0.0
 30
0.0
 11
34.0
 21
0.0
 31
0.0
  0
ENDBLK
  5
9E
330
9C
100
AcDbEntity
  8
0
100
AcDbBlockEnd
  0
ENDSEC
  0
SECTION
  2
ENTITIES
  0
LINE
  5
83
330
1F
100
AcDbEntity
  8
0
  6
Continuous
 62
     7
370
    25
100
AcDbLine
 10
108.7388270586
 20
108.0881495464
 30
0.0
 11
108.7388270586
 21
4.1832577872
 31
0.0
  0
LINE
  5
84
330
1F
100
AcDbEntity
  8
0
  6
Continuous
 62
     7
370
    25
100
AcDbLine
 10
171.7388280719
 20
4.1832577872
 30
0.0
 11
171.7388280719
 21
108.0603961337
 31
0.0
  0
CIRCLE
  5
85
330
1F
100
AcDbEntity
  8
0
  6
Continuous
 62
     7
370
    25
100
AcDbCircle
 10
140.2388275653
 20
153.1832617212
 30
0.0
 40
48.39999999999999
  0
CIRCLE
  5
86
330
1F
100
AcDbEntity
  8
0
  6
Continuous
 62
     7
370
    25
100
AcDbCircle
 10
140.2388275653
 20
153.1832617212
 30
0.0
 40
55.0
  0
LINE
  5
87
330
1F
100
AcDbEntity
  8
0
  6
Continuous
 62
     7
370
    25
100
AcDbLine
 10
171.7388280719
 20
4.1832577872
 30
0.0
 11
108.7388270586
 21
4.1832577872
 31
0.0
  0
INSERT
  5
93
330
1F
100
AcDbEntity
  8
FORMAT
 62
     7
100
AcDbBlockReference
  2
SW_CENTERMARKSYMBOL_0
 10
140.2388275653
 20
153.1832617212
 30
0.0
  0
LINE
  5
94
330
1F
100
AcDbEntity
  8
0
  6
Continuous
 62
     7
370
    25
100
AcDbLine
 10
195.2388272672
 20
227.9494186541
 30
0.0
 11
195.2388272672
 21
554.9494107863
 31
0.0
  0
LINE
  5
95
330
1F
100
AcDbEntity
  8
0
  6
Continuous
 62
     7
370
    25
100
AcDbLine
 10
85.2388278633
 20
554.9494107863
 30
0.0
 11
85.2388278633
 21
227.9494186541
 31
0.0
  0
CIRCLE
  5
96
330
1F
100
AcDbEntity
  8
0
  6
Continuous
 62
     7
370
    25
100
AcDbCircle
 10
140.2388275653
 20
391.4494147202
 30
0.0
 40
27.69999999999999
  0
CIRCLE
  5
97
330
1F
100
AcDbEntity
  8
0
  6
Continuous
 62
     7
370
    25
100
AcDbCircle
 10
140.2388275653
 20
391.4494147202
 30
0.0
 40
31.49999999999994
  0
LINE
  5
98
330
1F
100
AcDbEntity
  8
0
  6
Continuous
 62
     7
370
    25
100
AcDbLine
 10
140.2388275653
 20
554.9494107863
 30
0.0
 11
195.2388272672
 21
554.9494107863
 31
0.0
  0
LINE
  5
99
330
1F
100
AcDbEntity
  8
0
  6
Continuous
 62
     7
370
    25
100
AcDbLine
 10
85.2388278633
 20
554.9494107863
 30
0.0
 11
140.2388275653
 21
554.9494107863
 31
0.0
  0
LINE
  5
9A
330
1F
100
AcDbEntity
  8
0
  6
Continuous
 62
     7
370
    25
100
AcDbLine
 10
140.2388275653
 20
227.9494186541
 30
0.0
 11
195.2388272672
 21
227.9494186541
 31
0.0
  0
LINE
  5
9B
330
1F
100
AcDbEntity
  8
0
  6
Continuous
 62
     7
370
    25
100
AcDbLine
 10
85.2388278633
 20
227.9494186541
 30
0.0
 11
140.2388275653
 21
227.9494186541
 31
0.0
  0
INSERT
  5
A7
330
1F
100
AcDbEntity
  8
FORMAT
100
AcDbBlockReference
  2
SW_CENTERMARKSYMBOL_1
 10
140.2388275653
 20
391.4494147202
 30
0.0
  0
LINE
  5
A8
330
1F
100
AcDbEntity
  8
0
  6
Continuous
 62
     7
370
    25
100
AcDbLine
 10
-21.9979160618
 20
208.1832614231
 30
0.0
 11
-348.997908194
 21
208.1832614231
 31
0.0
  0
LINE
  5
A9
330
1F
100
AcDbEntity
  8
0
  6
Continuous
 62
     7
370
    25
100
AcDbLine
 10
-154.0016741644
 20
98.1832620192
 30
0.0
 11
-21.9979160618
 21
98.1832620192
 31
0.0
  0
LINE
  5
AA
330
1F
100
AcDbEntity
  8
0
  6
Continuous
 62
     7
370
    25
100
AcDbLine
 10
-348.997908194
 20
98.1832620192
 30
0.0
 11
-216.9979126345
 21
98.1832620192
 31
0.0
  0
LINE
  5
AB
330
1F
100
AcDbEntity
  8
0
  6
Continuous
 62
     7
370
    25
100
AcDbLine
 10
-216.9979126345
 20
98.1832620192
 30
0.0
 11
-216.9979126345
 21
4.1832577872
 31
0.0
  0
LINE
  5
AC
330
1F
100
AcDbEntity
  8
0
  6
Continuous
 62
     7
370
    25
100
AcDbLine
 10
-153.9979116212
 20
4.1832577872
 30
0.0
 11
-153.9979116212
 21
98.1854003358
 31
0.0
  0
LWPOLYLINE
  5
AD
330
1F
100
AcDbEntity
  8
0
  6
Continuous
 62
     7
370
    25
100
AcDbPolyline
 90
       25
 70
   128
 43
0.0
 10
-154.0016741644
 20
98.1854077864
 10
-154.3356687914
 20
98.3760048139
 10
-155.3878472339
 20
98.9673424947
 10
-157.0325461369
 20
99.8632189322
 10
-159.2978746783
 20
101.0373894561
 10
-162.3315834593
 20
102.4937283683
 10
-165.9996681999
 20
104.0616620767
 10
-170.5421297964
 20
105.6814145732
 10
-173.0937757682
 20
106.4218681741
 10
-175.7688294317
 20
107.0594590593
 10
-180.0434636105
 20
107.7684935618
 10
-184.595508749
 20
108.0882017005
 10
-189.0542158078
 20
107.9571944165
 10
-193.5404888507
 20
107.3855225432
 10
-197.6236407798
 20
106.4951111067
 10
-201.5112270754
 20
105.3379241812
 10
-205.4953244667
 20
103.8613941956
 10
-209.0680492263
 20
102.3079108882
 10
-212.3283730041
 20
100.7178079772
 10
-213.7120054256
 20
99.9969978321
 10
-214.8724538427
 20
99.372356056
 10
-216.2214075368
 20
98.6242730606
 10
-216.920884807
 20
98.227339654
 10
-216.9979126345
 20
98.1832620192
 10
-216.9979126345
 20
98.1832620192
  0
LINE
  5
AE
330
1F
100
AcDbEntity
  8
0
  6
Continuous
 62
     7
370
    25
100
AcDbLine
 10
-348.997908194
 20
98.1832620192
 30
0.0
 11
-348.997908194
 21
208.1832614231
 31
0.0
  0
LINE
  5
AF
330
1F
100
AcDbEntity
  8
0
  6
Continuous
 62
     7
370
    25
100
AcDbLine
 10
-21.9979160618
 20
98.1832620192
 30
0.0
 11
-21.9979160618
 21
208.1832614231
 31
0.0
  0
LINE
  5
B0
330
1F
100
AcDbEntity
  8
0
  6
Continuous
 62
     7
370
    25
100
AcDbLine
 10
-153.9979116212
 20
4.1832577872
 30
0.0
 11
-216.9979126345
 21
4.1832577872
 31
0.0
  0
LINE
  5
B1
330
1F
100
AcDbEntity
  8
0
  6
Continuous
 62
     7
370
    25
100
AcDbLine
 10
488.929454232
 20
98.1832620192
 30
0.0
 11
620.9294497915
 21
98.1832620192
 31
0.0
  0
LINE
  5
B2
330
1F
100
AcDbEntity
  8
0
  6
Continuous
 62
     7
370
    25
100
AcDbLine
 10
293.9294576593
 20
98.1832620192
 30
0.0
 11
425.933215762
 21
98.1832620192
 31
0.0
  0
LINE
  5
B3
330
1F
100
AcDbEntity
  8
0
  6
Continuous
 62
     7
370
    25
100
AcDbLine
 10
620.9294497915
 20
208.1832614231
 30
0.0
 11
293.9294576593
 21
208.1832614231
 31
0.0
  0
LINE
  5
B4
330
1F
100
AcDbEntity
  8
0
  6
Continuous
 62
     7
370
    25
100
AcDbLine
 10
425.9294532188
 20
98.1854003358
 30
0.0
 11
425.9294532188
 21
4.1832577872
 31
0.0
  0
LINE
  5
B5
330
1F
100
AcDbEntity
  8
0
  6
Continuous
 62
     7
370
    25
100
AcDbLine
 10
488.929454232
 20
4.1832577872
 30
0.0
 11
488.929454232
 21
98.1832620192
 31
0.0
  0
SPLINE
  5
B6
330
1F
100
AcDbEntity
  8
0
  6
Continuous
 62
     7
370
    25
100
AcDbSpline
210
0.0
220
0.0
230
1.0
 70
     8
 71
     3
 72
    31
 73
    27
 74
     0
 42
0.000000001
 43
0.00000001
 40
0.0
 40
0.0
 40
0.0
 40
0.0
 40
0.0473968666098387
 40
0.0962901025724512
 40
0.1436592078715305
 40
0.1922350219657344
 40
0.2431050004542731
 40
0.2951768798088364
 40
0.3513493733916807
 40
0.3802496634694826
 40
0.4094171948447179
 40
0.4531468617303551
 40
0.498108632289466
 40
0.541860700552826
 40
0.5869061828065165
 40
0.6306651480220763
 40
0.6753758499831432
 40
0.7261698909789962
 40
0.7781462844466719
 40
0.834513067192782
 40
0.8635293545898312
 40
0.8928116754700101
 40
0.9451358387728708
 40
0.9721784458043431
 40
0.9994923183099123
 40
1.0
 40
1.0
 40
1.0
 40
1.0
 10
488.9294542320315
 20
98.18326201917439
 30
0.0
 10
488.858443457199
 20
98.22408825715631
 30
0.0
 10
488.7141800220513
 20
98.30702966075769
 30
0.0
 10
487.5632607517002
 20
98.95874772995039
 30
0.0
 10
485.7720389400427
 20
99.93826826771048
 30
0.0
 10
483.3191106159896
 20
101.2110855637999
 30
0.0
 10
480.2003638170166
 20
102.7043448634707
 30
0.0
 10
476.3550469712525
 20
104.336696675268
 30
0.0
 10
472.5746085372616
 20
105.6675970184255
 30
0.0
 10
469.1679026620445
 20
106.6178725652122
 30
0.0
 10
465.9900781299453
 20
107.3344079068193
 30
0.0
 10
462.1336774847156
 20
107.9243766912415
 30
0.0
 10
457.6604741459419
 20
108.1723622621831
 30
0.0
 10
453.1373572833978
 20
107.9661920464634
 30
0.0
 10
448.7809153831258
 20
107.3391430956708
 30
0.0
 10
444.6279034993298
 20
106.3673771179382
 30
0.0
 10
440.6089545858439
 20
105.1095911421971
 30
0.0
 10
436.7619741832261
 20
103.6252985071773
 30
0.0
 10
433.1445602962198
 20
102.0018807705212
 30
0.0
 10
430.5640368867402
 20
100.710018626172
 30
0.0
 10
428.821996837982
 20
99.79049986850788
 30
0.0
 10
427.4352082289617
 20
99.03590798840743
 30
0.0
 10
426.4744567525656
 20
98.4943236234137
 30
0.0
 10
426.0445722729002
 20
98.24920564626846
 30
0.0
 10
425.8629957845085
 20
98.14534150606532
 30
0.0
 10
425.9319573659644
 20
98.18468976783504
 30
0.0
 10
425.933215761954
 20
98.1854077863863
 30
0.0
  0
LINE
  5
B7
330
1F
100
AcDbEntity
  8
0
  6
Continuous
 62
     7
370
    25
100
AcDbLine
 10
620.9294497915
 20
208.1832614231
 30
0.0
 11
620.9294497915
 21
98.1832620192
 31
0.0
  0
LINE
  5
B8
330
1F
100
AcDbEntity
  8
0
  6
Continuous
 62
     7
370
    25
100
AcDbLine
 10
293.9294576593
 20
208.1832614231
 30
0.0
 11
293.9294576593
 21
98.1832620192
 31
0.0
  0
LINE
  5
B9
330
1F
100
AcDbEntity
  8
0
  6
Continuous
 62
     7
370
    25
100
AcDbLine
 10
488.929454232
 20
4.1832577872
 30
0.0
 11
425.9294532188
 21
4.1832577872
 31
0.0
  0
LINE
  5
BA
330
1F
100
AcDbEntity
  8
0
  6
Continuous
 62
     7
370
    25
100
AcDbLine
 10
85.2388278633
 20
-31.9365607851
 30
0.0
 11
85.2388278633
 21
-358.9365529173
 31
0.0
  0
LINE
  5
BB
330
1F
100
AcDbEntity
  8
0
  6
Continuous
 62
     7
370
    25
100
AcDbLine
 10
195.2388272672
 20
-358.9365529173
 30
0.0
 11
195.2388272672
 21
-31.9365607851
 31
0.0
  0
LINE
  5
BC
330
1F
100
AcDbEntity
  8
0
  6
Continuous
 62
     7
370
    25
100
AcDbLine
 10
195.2388272672
 20
-358.9365529173
 30
0.0
 11
85.2388278633
 21
-358.9365529173
 31
0.0
  0
LINE
  5
BD
330
1F
100
AcDbEntity
  8
0
  6
Continuous
 62
     7
370
    25
100
AcDbLine
 10
195.2388272672
 20
-31.9365607851
 30
0.0
 11
85.2388278633
 21
-31.9365607851
 31
0.0
  0
LINE
  5
BE
330
1F
100
AcDbEntity
  8
0
  6
Continuous
 62
     7
370
    25
100
AcDbLine
 10
598.2392199976
 20
-179.2841694436
 30
0.0
 11
367.015308113
 21
-45.8014463723
 31
0.0
  0
LINE
  5
BF
330
1F
100
AcDbEntity
  8
0
  6
Continuous
 62
     7
370
    25
100
AcDbLine
 10
312.019776831
 20
-141.0668245067
 30
0.0
 11
423.6294980024
 21
-205.4977450883
 31
0.0
  0
LINE
  5
C0
330
1F
100
AcDbEntity
  8
0
  6
Continuous
 62
     7
370
    25
100
AcDbLine
 10
486.6294971798
 20
-241.8668704747
 30
0.0
 11
543.2436887156
 21
-274.549547578
 31
0.0
  0
LINE
  5
C1
330
1F
100
AcDbEntity
  8
0
  6
Continuous
 62
     7
370
    25
100
AcDbLine
 10
423.6294996488
 20
-201.2374603742
 30
0.0
 11
423.6294996488
 21
-281.8400811583
 31
0.0
  0
LINE
  5
C2
330
1F
100
AcDbEntity
  8
0
  6
Continuous
 62
     7
370
    25
100
AcDbLine
 10
486.6294971798
 20
-281.8400811583
 30
0.0
 11
486.6294971798
 21
-201.2360611224
 31
0.0
  0
SPLINE
  5
C3
330
1F
100
AcDbEntity
  8
0
  6
Continuous
 62
     7
370
    25
100
AcDbSpline
210
0.0
220
0.0
230
1.0
 70
     8
 71
     3
 72
    13
 73
     9
 74
     0
 42
0.000000001
 43
0.00000001
 40
0.0
 40
0.0
 40
0.0
 40
0.0
 40
0.1899899293888556
 40
0.385978042371015
 40
0.5758566907860809
 40
0.7705724209573284
 40
0.9744842892377483
 40
0.9999999999999999
 40
0.9999999999999999
 40
0.9999999999999999
 40
0.9999999999999999
 10
432.8556344486632
 20
-192.2268134175006
 30
0.0
 10
431.7728739611753
 20
-192.8763729776469
 30
0.0
 10
429.5731690891242
 20
-194.1959993822417
 30
0.0
 10
427.0639072926725
 20
-196.054227396868
 30
0.0
 10
425.1622469736126
 20
-197.8063646339506
 30
0.0
 10
424.0280534327051
 20
-199.4561488319517
 30
0.0
 10
423.5328246357398
 20
-200.5809427955994
 30
0.0
 10
423.6586511027394
 20
-201.1703987566001
 30
0.0
 10
423.6726448507953
 20
-201.2359549023378
 30
0.0
  0
SPLINE
  5
C4
330
1F
100
AcDbEntity
  8
0
  6
Continuous
 62
     7
370
    25
100
AcDbSpline
210
0.0
220
0.0
230
1.0
 70
     8
 71
     3
 72
    25
 73
    21
 74
     0
 42
0.000000001
 43
0.00000001
 40
0.0
 40
0.0
 40
0.0
 40
0.0
 40
0.0511890109325627
 40
0.1258007587340988
 40
0.1641575047780389
 40
0.2028560396320584
 40
0.2615622014487474
 40
0.3219110468040247
 40
0.3806538160170468
 40
0.441182907587067
 40
0.4991034927112382
 40
0.5582993480941436
 40
0.6251628300531133
 40
0.6935536033415316
 40
0.76851747561338
 40
0.8070802910622273
 40
0.845986854449966
 40
0.9076292342142269
 40
0.9710100774331869
 40
1.0
 40
1.0
 40
1.0
 40
1.0
 10
486.5535999252202
 20
-201.2377498360367
 30
0.0
 10
486.5415151305035
 20
-200.204501413768
 30
0.0
 10
486.5118158587886
 20
-197.6652174324177
 30
0.0
 10
485.6323601213059
 20
-194.4113630617621
 30
0.0
 10
484.4195676477678
 20
-191.5843926293011
 30
0.0
 10
483.0303071868104
 20
-189.2006879672066
 30
0.0
 10
480.9931862463602
 20
-186.7097711533779
 30
0.0
 10
478.140621174988
 20
-184.4252631964534
 30
0.0
 10
474.7740146419912
 20
-182.7519215154823
 30
0.0
 10
471.077923858856
 20
-181.7623420923589
 30
0.0
 10
467.1119719771025
 20
-181.3915241733176
 30
0.0
 10
462.8267648729299
 20
-181.5647362652238
 30
0.0
 10
458.1721059895083
 20
-182.2792849889674
 30
0.0
 10
453.0783986909851
 20
-183.5422355530062
 30
0.0
 10
448.6808751407411
 20
-184.9850261862319
 30
0.0
 10
445.0777464079442
 20
-186.3563418829376
 30
0.0
 10
441.8614941191979
 20
-187.6895652060279
 30
0.0
 10
438.230659129043
 20
-189.3540505220399
 30
0.0
 10
435.0761971975149
 20
-190.9677351775702
 30
0.0
 10
433.3860693285062
 20
-191.9260522634843
 30
0.0
 10
432.8556344486632
 20
-192.2268134175006
 30
0.0
  0
LWPOLYLINE
  5
C5
330
1F
100
AcDbEntity
  8
0
  6
Continuous
 62
     7
370
    25
100
AcDbPolyline
 90
       90
 70
   128
 43
0.0
 10
339.517542472
 20
-138.3438798499
 10
342.2608642133
 20
-136.6483237433
 10
344.9905188512
 20
-134.7374798801
 10
347.6929076062
 20
-132.6208625615
 10
350.3545667004
 20
-130.3090184295
 10
352.9622356817
 20
-127.8134657317
 10
355.5029254182
 20
-125.1466398595
 10
357.9639760503
 20
-122.3218203489
 10
360.3331267962
 20
-119.3530844988
 10
362.5985765385
 20
-116.2552237262
 10
364.7490378243
 20
-113.0436667639
 10
366.7737961343
 20
-109.7344180691
 10
368.662765201
 20
-106.343958968
 10
370.4065331062
 20
-102.8891875839
 10
371.996414965
 20
-99.387310856
 10
373.424489804
 20
-95.8557745809
 10
374.6836400742
 20
-92.312175202
 10
375.7675964318
 20
-88.7741639955
 10
376.6709561777
 20
-85.2593679845
 10
377.3892175016
 20
-81.7853009673
 10
377.9188058241
 20
-78.3692661811
 10
378.2570816986
 20
-75.0282832982
 10
378.4023592512
 20
-71.7789972672
 10
378.3539114488
 20
-68.6375979898
 10
378.1119859042
 20
-65.6197319181
 10
377.6777838025
 20
-62.7404368431
 10
377.053470438
 20
-60.014054918
 10
376.2421541409
 20
-57.4541717237
 10
375.2478757402
 20
-55.0735390812
 10
374.075592759
 20
-52.8840153535
 10
372.7311425359
 20
-50.8965122098
 10
371.2212237854
 20
-49.1209284638
 10
369.5533597202
 20
-47.5661105257
 10
367.7358585377
 20
-46.2398037293
 10
365.7777739078
 20
-45.1486173465
 10
363.6888628259
 20
-44.2979880816
 10
361.4795329295
 20
-43.6921526895
 10
359.1607884973
 20
-43.3341274381
 10
356.744181717
 20
-43.2256997388
 10
354.2417534164
 20
-43.3674076082
 10
351.665968526
 20
-43.7585465064
 10
349.0296620782
 20
-44.3971640084
 10
346.3459667676
 20
-45.2800833723
 10
343.6282520356
 20
-46.4029022019
 10
340.890058298
 20
-47.7600304169
 10
338.1450266459
 20
-49.344703459
 10
335.4068329083
 20
-51.14902644
 10
332.6891181763
 20
-53.1640142499
 10
330.0054228657
 20
-55.3796235376
 10
327.369116418
 20
-57.7848206707
 10
324.7933315275
 20
-60.367619705
 10
322.290903227
 20
-63.1151540522
 10
319.8742964467
 20
-66.0137365499
 10
317.5555520144
 20
-69.0489271376
 10
315.346222118
 20
-72.205600532
 10
313.2573110362
 20
-75.4680351953
 10
311.2992264063
 20
-78.8199779702
 10
309.4817252238
 20
-82.2447269654
 10
307.8138611585
 20
-85.7252197641
 10
306.3039424081
 20
-89.2441185918
 10
304.9594921849
 20
-92.7838909222
 10
303.7872092037
 20
-96.3269037702
 10
302.792930803
 20
-99.8555058189
 10
301.9816145059
 20
-103.3521148711
 10
301.3573011415
 20
-106.7993136638
 10
300.9230990397
 20
-110.1799278145
 10
300.6811734951
 20
-113.4771151746
 10
300.6327256927
 20
-116.6744510939
 10
300.7780032454
 20
-119.7560032329
 10
301.1162791199
 20
-122.7064211045
 10
301.6458674423
 20
-125.5110062287
 10
302.3641287663
 20
-128.1557863732
 10
303.2674885122
 20
-130.6275854224
 10
304.3514448698
 20
-132.9140872574
 10
305.61059514
 20
-135.0039026791
 10
307.0386699789
 20
-136.8866188413
 10
308.6285518377
 20
-138.5528570476
 10
310.3723197429
 20
-139.9943168629
 10
312.2612888096
 20
-141.2038187026
 10
314.2860471197
 20
-142.1753312127
 10
316.4365084055
 20
-142.9040184238
 10
318.7019581477
 20
-143.3862465993
 10
321.0711088937
 20
-143.6196192219
 10
323.5321595258
 20
-143.6029701552
 10
326.0728492622
 20
-143.3363780972
 10
328.6805182435
 20
-142.8211802748
 10
331.3421773378
 20
-142.0599382291
 10
334.0445660928
 20
-141.0564439046
 10
336.7742207307
 20
-139.8156956064
 10
339.517542472
 20
-138.3438798499
  0
LWPOLYLINE
  5
C6
330
1F
100
AcDbEntity
  8
0
  6
Continuous
 62
     7
370
    25
100
AcDbPolyline
 90
       35
 70
   128
 43
0.0
 10
570.7414543566
 20
-271.8266029212
 10
573.4847760979
 20
-270.1310468146
 10
576.2144307358
 20
-268.2202029515
 10
578.9168194908
 20
-266.1035856328
 10
581.578478585
 20
-263.7917415008
 10
584.1861475663
 20
-261.2961888031
 10
586.7268373028
 20
-258.6293629308
 10
589.1878879349
 20
-255.8045434202
 10
591.5570386808
 20
-252.8358075701
 10
593.8224884231
 20
-249.7379467975
 10
595.9729497089
 20
-246.5263898353
 10
597.9977080189
 20
-243.2171411404
 10
599.8866770856
 20
-239.8266820393
 10
601.6304449909
 20
-236.3719106552
 10
603.2203268496
 20
-232.8700339274
 10
604.6484016886
 20
-229.3384976523
 10
605.9075519588
 20
-225.7948982733
 10
606.9915083164
 20
-222.2568870669
 10
607.8948680623
 20
-218.7420910558
 10
608.6131293863
 20
-215.2680240386
 10
609.1427177087
 20
-211.8519892524
 10
609.4809935832
 20
-208.5110063695
 10
609.6262711358
 20
-205.2617203386
 10
609.5778233335
 20
-202.1203210612
 10
609.3358977888
 20
-199.1024549894
 10
608.9016956871
 20
-196.2231599145
 10
608.2773823227
 20
-193.4967779893
 10
607.4660660255
 20
-190.9368947951
 10
606.4717876249
 20
-188.5562621525
 10
605.2995046437
 20
-186.3667384248
 10
603.9550544205
 20
-184.3792352811
 10
602.44513567
 20
-182.6036515352
 10
600.7772716048
 20
-181.0488335971
 10
598.9597704223
 20
-179.7225268006
 10
598.2392199976
 20
-179.2841694436
  0
LWPOLYLINE
  5
C7
330
1F
100
AcDbEntity
  8
0
  6
Continuous
 62
     7
370
    25
100
AcDbPolyline
 90
       13
 70
   128
 43
0.0
 10
543.2436887156
 20
-274.549547578
 10
543.4852006943
 20
-274.6865417739
 10
545.5099590043
 20
-275.6580542841
 10
547.6604202901
 20
-276.3867414952
 10
549.9258700324
 20
-276.8689696707
 10
552.2950207783
 20
-277.1023422933
 10
554.7560714104
 20
-277.0856932265
 10
557.2967611469
 20
-276.8191011685
 10
559.9044301282
 20
-276.3039033461
 10
562.5660892224
 20
-275.5426613004
 10
565.2684779774
 20
-274.539166976
 10
567.9981326153
 20
-273.2984186778
 10
570.7414543566
 20
-271.8266029212
  0
LWPOLYLINE
  5
C8
330
1F
100
AcDbEntity
  8
0
  6
Continuous
 62
     7
370
    25
100
AcDbPolyline
 90
       84
 70
   128
 43
0.0
 10
339.517542472
 20
-132.9547105206
 10
342.1058583119
 20
-131.3473233363
 10
344.6793483394
 20
-129.5227712742
 10
347.2232725172
 20
-127.4915073197
 10
349.7230580787
 20
-125.2651654728
 10
352.1643879369
 20
-122.8565005847
 10
354.5332778992
 20
-120.279304239
 10
356.8161593146
 20
-117.5483418309
 10
358.9999548063
 20
-114.6792571363
 10
361.0721572969
 20
-111.6884810638
 10
363.0208984973
 20
-108.5931434474
 10
364.8350121269
 20
-105.4109817966
 10
366.5041116216
 20
-102.1602127859
 10
368.018632281
 20
-98.8594638168
 10
369.3699023912
 20
-95.527639183
 10
370.5501801027
 20
-92.1838242559
 10
371.552708749
 20
-88.8471683778
 10
372.3717405535
 20
-85.5367867651
 10
373.0025866795
 20
-82.2716411202
 10
373.4416330346
 20
-79.0704335479
 10
373.6863639789
 20
-75.9515004737
 10
373.7353807637
 20
-72.9327054675
 10
373.588401532
 20
-70.0313405258
 10
373.2462665867
 20
-67.2640246458
 10
372.7109383904
 20
-64.6466086726
 10
371.9854778578
 20
-62.1940865599
 10
371.0740469904
 20
-59.9205021664
 10
369.9818614606
 20
-57.8388834713
 10
368.7151800755
 20
-55.9611497968
 10
367.2812573613
 20
-54.2980578108
 10
365.6883066851
 20
-52.859133842
 10
363.9454502055
 20
-51.6526206434
 10
362.0626767255
 20
-50.685427197
 10
360.0507626675
 20
-49.9630952468
 10
357.9212391459
 20
-49.4897605113
 10
355.6862997706
 20
-49.2681359455
 10
353.3587466471
 20
-49.2994881609
 10
350.9519126673
 20
-49.5836427416
 10
348.4795844605
 20
-50.1189678871
 10
345.9559220508
 20
-50.9023964585
 10
343.3953808194
 20
-51.9294466932
 10
340.8126279519
 20
-53.1942308954
 10
338.2224569921
 20
-54.6895047627
 10
335.6397041245
 20
-56.4067035481
 10
333.0791628931
 20
-58.3359912917
 10
330.5555004834
 20
-60.4663213175
 10
328.0831722767
 20
-62.7854855599
 10
325.6763382969
 20
-65.2802023424
 10
323.3487851733
 20
-67.9361857619
 10
321.1138457981
 20
-70.7382164049
 10
318.9843222764
 20
-73.6702466636
 10
316.9724082184
 20
-76.7154851408
 10
315.0896347385
 20
-79.8564825764
 10
313.3467782589
 20
-83.0752550343
 10
311.7538275827
 20
-86.3533607056
 10
310.3199048685
 20
-89.6720246177
 10
309.0532234833
 20
-93.0122374897
 10
307.9610379535
 20
-96.3548667561
 10
307.0496070861
 20
-99.6807668299
 10
306.3241465536
 20
-102.9708878447
 10
305.7888183572
 20
-106.2063805974
 10
305.4466834119
 20
-109.3687170769
 10
305.2997041803
 20
-112.4397806273
 10
305.3487209651
 20
-115.4019820585
 10
305.5934519093
 20
-118.2383547989
 10
306.0324982644
 20
-120.9326502395
 10
306.6633443904
 20
-123.469436451
 10
307.482376195
 20
-125.8341840704
 10
308.4849048413
 20
-128.0133450115
 10
309.6651825528
 20
-129.9944402992
 10
311.0164526629
 20
-131.7661216724
 10
312.5309733224
 20
-133.3182423087
 10
314.2000728171
 20
-134.6419100623
 10
316.0141864467
 20
-135.7295406997
 10
317.9629276471
 20
-136.5749096181
 10
320.0351301377
 20
-137.173171621
 10
322.2189256293
 20
-137.5208997095
 10
324.5018070448
 20
-137.6161033392
 10
326.8706970071
 20
-137.4582375518
 10
329.3120268653
 20
-137.0482029833
 10
331.8118124268
 20
-136.3883538552
 10
334.3557366046
 20
-135.482465473
 10
336.929226632
 20
-134.3357291951
 10
339.517542472
 20
-132.9547105206
  0
LWPOLYLINE
  5
C9
330
1F
100
AcDbEntity
  8
0
  6
Continuous
 62
     7
370
    25
100
AcDbPolyline
 90
       64
 70
   128
 43
0.0
 10
474.7163559076
 20
-293.1473333076
 10
476.5692456256
 20
-291.965306213
 10
478.2090579997
 20
-290.6826504924
 10
479.6194950411
 20
-289.3121126641
 10
480.7865399593
 20
-287.8673151571
 10
481.6985924927
 20
-286.3626158386
 10
482.3465897518
 20
-284.8129698225
 10
482.7240911714
 20
-283.233777021
 10
482.8273456819
 20
-281.6407338788
 10
482.6553259539
 20
-280.0496721807
 10
482.2097435445
 20
-278.4764035629
 10
481.4950238729
 20
-276.9365651635
 10
480.5182726343
 20
-275.4454603317
 10
479.2891961162
 20
-274.0179077002
 10
477.8200093314
 20
-272.6680953908
 10
476.1253151751
 20
-271.4094382597
 10
474.2219544002
 20
-270.2544456706
 10
472.1288443151
 20
-269.2145964422
 10
469.8667867356
 20
-268.3002249401
 10
467.4582642476
 20
-267.5204186682
 10
464.9272116515
 20
-266.882927385
 10
462.2987866644
 20
-266.3940869979
 10
459.5991084786
 20
-266.0587568354
 10
456.8550088316
 20
-265.8802671836
 10
454.0937620026
 20
-265.8603941952
 10
451.3428082244
 20
-265.9993340377
 10
448.6294889477
 20
-266.2957066953
 10
445.9807689359
 20
-266.7465658531
 10
443.4229721887
 20
-267.3474312118
 10
440.9815208291
 20
-268.0923312566
 10
438.6806789293
 20
-268.9738629439
 10
436.5433128834
 20
-269.9832646462
 10
434.5906643738
 20
-271.1105046368
 10
432.8421398839
 20
-272.3443797913
 10
431.3151167569
 20
-273.6726275475
 10
430.0247722213
 20
-275.0820474171
 10
428.983930114
 20
-276.5586320493
 10
428.2029345232
 20
-278.0877055648
 10
427.6895463956
 20
-279.6540714422
 10
427.4488694514
 20
-281.2421632549
 10
427.483294207
 20
-282.8361971193
 10
427.7924808535
 20
-284.4203321263
 10
428.3733526709
 20
-285.9788231695
 10
429.2201408094
 20
-287.4961806167
 10
430.3244277531
 20
-288.9573261791
 10
431.6752381991
 20
-290.3477366157
 10
433.2591477178
 20
-291.6535946603
 10
435.0604145845
 20
-292.8619213925
 10
437.0611372137
 20
-293.9607081795
 10
439.2414315535
 20
-294.9390342917
 10
441.5796284026
 20
-295.7871777693
 10
444.0524900304
 20
-296.4967085405
 10
446.6354392265
 20
-297.0605750283
 10
449.3028065846
 20
-297.4731739123
 10
452.0280830539
 20
-297.7304031619
 10
454.7841813819
 20
-297.8297080371
 10
457.5437120438
 20
-297.770100477
 10
460.2792506123
 20
-297.5521735462
 10
462.9636071015
 20
-297.178092691
 10
465.5701051907
 20
-296.6515759707
 10
468.0728390559
 20
-295.97785528
 10
470.4469374468
 20
-295.1636273073
 10
472.6688030672
 20
-294.2169837736
 10
474.7163559076
 20
-293.1473333076
  0
LWPOLYLINE
  5
CA
330
1F
100
AcDbEntity
  8
0
  6
Continuous
 62
     7
370
    25
100
AcDbPolyline
 90
       68
 70
   128
 43
0.0
 10
477.4033623799
 20
-294.6985091263
 10
479.3912473013
 20
-293.4379259608
 10
481.1659205356
 20
-292.0754215924
 10
482.7117849502
 20
-290.622968419
 10
484.0152539486
 20
-289.0933307317
 10
485.0648744541
 20
-287.4999511393
 10
485.8514228923
 20
-285.8568328108
 10
486.3679852044
 20
-284.1784142094
 10
486.6100227016
 20
-282.4794474382
 10
486.5754069681
 20
-280.7748609993
 10
486.2644448856
 20
-279.0796358579
 10
485.6798667796
 20
-277.4086708627
 10
484.826811273
 20
-275.7766477855
 10
483.7127752365
 20
-274.1979111876
 10
482.3475485926
 20
-272.6863334596
 10
480.7431280468
 20
-271.25519963
 10
478.9136145185
 20
-269.9170858061
 10
476.8750838614
 20
-268.6837526072
 10
474.645454207
 20
-267.5660366504
 10
472.2443168018
 20
-266.5737620187
 10
469.6927722762
 20
-265.715648782
 10
467.0132468695
 20
-264.9992373203
 10
464.2292868405
 20
-264.430822863
 10
461.3653564591
 20
-264.01540274
 10
458.4466266137
 20
-263.7566258197
 10
455.4987443199
 20
-263.6567674174
 10
452.5476180359
 20
-263.7167042045
 10
449.6191799273
 20
-263.9359107864
 10
446.7391685476
 20
-264.3124589426
 10
443.9328904453
 20
-264.8430411971
 10
441.2250094291
 20
-265.5229936288
 10
438.6393210171
 20
-266.346340921
 10
436.1985492753
 20
-267.3058482552
 10
433.9241429162
 20
-268.3930827558
 10
431.8360900824
 20
-269.5984899988
 10
429.952740623
 20
-270.9114768423
 10
428.2906450784
 20
-272.3205043768
 10
426.8644112005
 20
-273.8131905243
 10
425.6865714208
 20
-275.3764169608
 10
424.7674764124
 20
-276.996446826
 10
424.1152051994
 20
-278.6590420061
 10
423.735487119
 20
-280.3495933418
 10
423.631662309
 20
-282.0532422824
 10
423.8046408778
 20
-283.7550185072
 10
424.2529042218
 20
-285.4399653819
 10
424.9725109522
 20
-287.0932771993
 10
425.9571403588
 20
-288.700423115
 10
427.198135874
 20
-290.2472802066
 10
428.6845926592
 20
-291.720255508
 10
430.4034489781
 20
-293.1064026271
 10
432.3395995896
 20
-294.393540429
 10
434.4760268391
 20
-295.5703591281
 10
436.7939591213
 20
-296.6265148071
 10
439.2730242384
 20
-297.5527270732
 10
441.8914373734
 20
-298.3408556389
 10
444.6261856884
 20
-298.9839749536
 10
447.4532388943
 20
-299.4764334153
 10
450.3477487899
 20
-299.8139031726
 10
453.2842830447
 20
-299.9934177618
 10
456.2370332995
 20
-300.0134009994
 10
459.1800489493
 20
-299.8736757264
 10
462.0874702685
 20
-299.5754706511
 10
464.9337430959
 20
-299.1214059028
 10
467.6938565697
 20
-298.5154728826
 10
470.3435538616
 20
-297.7629962467
 10
472.8595491668
 20
-296.8705877156
 10
475.219731689
 20
-295.8460906645
 10
477.4033623799
 20
-294.6985091263
  0
ENDSEC
  0
SECTION
  2
OBJECTS
  0
DICTIONARY
  5
C
330
0
100
AcDbDictionary
281
     1
  3
ACAD_GROUP
350
D
  3
ACAD_LAYOUT
350
1A
  3
ACAD_MLINESTYLE
350
17
  3
ACAD_PLOTSETTINGS
350
19
  3
ACAD_PLOTSTYLENAME
350
E
  3
ACAD_SCALELIST
350
47
  0
DICTIONARY
  5
D
102
{ACAD_REACTORS
330
C
102
}
330
C
100
AcDbDictionary
281
     1
  0
DICTIONARY
  5
1A
102
{ACAD_REACTORS
330
C
102
}
330
C
100
AcDbDictionary
281
     1
  3
Layout1
350
1E
  3
Layout2
350
26
  3
Model
350
22
  0
DICTIONARY
  5
17
102
{ACAD_REACTORS
330
C
102
}
330
C
100
AcDbDictionary
281
     1
  3
Standard
350
18
  0
DICTIONARY
  5
19
102
{ACAD_REACTORS
330
C
102
}
330
C
100
AcDbDictionary
281
     1
  0
ACDBDICTIONARYWDFLT
  5
E
102
{ACAD_REACTORS
330
C
102
}
330
C
100
AcDbDictionary
281
     1
  3
Normal
350
F
100
AcDbDictionaryWithDefault
340
F
  0
DICTIONARY
  5
47
102
{ACAD_REACTORS
330
C
102
}
330
C
100
AcDbDictionary
281
     1
  3
A0
350
48
  3
A1
350
49
  3
A2
350
4A
  3
A3
350
4B
  3
A4
350
4C
  3
A5
350
4D
  3
A6
350
4E
  3
A7
350
4F
  3
A8
350
50
  3
A9
350
51
  3
B0
350
52
  3
B1
350
53
  3
B2
350
54
  3
B3
350
55
  3
B4
350
56
  3
B5
350
57
  3
B6
350
58
  3
B7
350
59
  3
B8
350
5A
  3
B9
350
5B
  3
C0
350
5C
  3
C1
350
5D
  3
C2
350
5E
  3
C3
350
5F
  3
C4
350
60
  3
C5
350
61
  3
C6
350
62
  3
C7
350
63
  3
C8
350
64
  3
C9
350
65
  3
D0
350
66
  3
D1
350
67
  3
D2
350
68
  0
LAYOUT
  5
1E
102
{ACAD_REACTORS
330
1A
102
}
330
1A
100
AcDbPlotSettings
  1

  2
none_device
  4

  6

 40
0.0
 41
0.0
 42
0.0
 43
0.0
 44
0.0
 45
0.0
 46
0.0
 47
0.0
 48
0.0
 49
0.0
140
0.0
141
0.0
142
1.0
143
1.0
 70
   688
 72
     1
 73
     0
 74
     5
  7

 75
    16
147
1.0
148
0.0
149
0.0
100
AcDbLayout
  1
Layout1
 70
     1
 71
     1
 10
0.0
 20
0.0
 11
420.0
 21
297.0
 12
0.0
 22
0.0
 32
0.0
 14
1.0000000000E+20
 24
1.0000000000E+20
 34
1.0000000000E+20
 15
-1.0000000000E+20
 25
-1.0000000000E+20
 35
-1.0000000000E+20
146
0.0
 13
0.0
 23
0.0
 33
0.0
 16
1.0
 26
0.0
 36
0.0
 17
0.0
 27
1.0
 37
0.0
 76
     0
330
1B
  0
LAYOUT
  5
26
102
{ACAD_REACTORS
330
1A
102
}
330
1A
100
AcDbPlotSettings
  1

  2
none_device
  4

  6

 40
0.0
 41
0.0
 42
0.0
 43
0.0
 44
0.0
 45
0.0
 46
0.0
 47
0.0
 48
0.0
 49
0.0
140
0.0
141
0.0
142
1.0
143
1.0
 70
   688
 72
     1
 73
     0
 74
     5
  7

 75
    16
147
1.0
148
0.0
149
0.0
100
AcDbLayout
  1
Layout2
 70
     1
 71
     2
 10
0.0
 20
0.0
 11
0.0
 21
0.0
 12
0.0
 22
0.0
 32
0.0
 14
0.0
 24
0.0
 34
0.0
 15
0.0
 25
0.0
 35
0.0
146
0.0
 13
0.0
 23
0.0
 33
0.0
 16
1.0
 26
0.0
 36
0.0
 17
0.0
 27
1.0
 37
0.0
 76
     0
330
23
  0
LAYOUT
  5
22
102
{ACAD_REACTORS
330
1A
102
}
330
1A
100
AcDbPlotSettings
  1

  2
none_device
  4
Letter_(8.50_x_11.00_Inches)
  6

 40
6.35
 41
6.35
 42
6.35000508
 43
6.35000508
 44
215.9
 45
279.4
 46
0.0
 47
0.0
 48
0.0
 49
0.0
140
0.0
141
0.0
142
1.0
143
1.0
 70
  1712
 72
     1
 73
     0
 74
     0
  7

 75
     0
147
1.0
148
0.0
149
0.0
100
AcDbLayout
  1
Model
 70
     1
 71
     0
 10
0.0
 20
0.0
 11
279.4
 21
215.9
 12
0.0
 22
0.0
 32
0.0
 14
0.0
 24
0.0
 34
0.0
 15
279.4
 25
215.9
 35
0.0
146
0.0
 13
0.0
 23
0.0
 33
0.0
 16
1.0
 26
0.0
 36
0.0
 17
0.0
 27
1.0
 37
0.0
 76
     0
330
1F
331
29
  0
MLINESTYLE
  5
18
102
{ACAD_REACTORS
330
17
102
}
330
17
100
AcDbMlineStyle
  2
Standard
 70
     0
  3

 62
   256
 51
90.0
 52
90.0
 71
     2
 49
0.5
 62
   256
  6
BYLAYER
 49
-0.5
 62
   256
  6
BYLAYER
  0
ACDBPLACEHOLDER
  5
F
102
{ACAD_REACTORS
330
E
102
}
330
E
  0
SCALE
  5
48
102
{ACAD_REACTORS
330
47
102
}
330
47
100
AcDbScale
 70
     0
300
1:1
140
1.0
141
1.0
290
     1
  0
SCALE
  5
49
102
{ACAD_REACTORS
330
47
102
}
330
47
100
AcDbScale
 70
     0
300
1:2
140
1.0
141
2.0
290
     0
  0
SCALE
  5
4A
102
{ACAD_REACTORS
330
47
102
}
330
47
100
AcDbScale
 70
     0
300
1:4
140
1.0
141
4.0
290
     0
  0
SCALE
  5
4B
102
{ACAD_REACTORS
330
47
102
}
330
47
100
AcDbScale
 70
     0
300
1:5
140
1.0
141
5.0
290
     0
  0
SCALE
  5
4C
102
{ACAD_REACTORS
330
47
102
}
330
47
100
AcDbScale
 70
     0
300
1:8
140
1.0
141
8.0
290
     0
  0
SCALE
  5
4D
102
{ACAD_REACTORS
330
47
102
}
330
47
100
AcDbScale
 70
     0
300
1:10
140
1.0
141
10.0
290
     0
  0
SCALE
  5
4E
102
{ACAD_REACTORS
330
47
102
}
330
47
100
AcDbScale
 70
     0
300
1:16
140
1.0
141
16.0
290
     0
  0
SCALE
  5
4F
102
{ACAD_REACTORS
330
47
102
}
330
47
100
AcDbScale
 70
     0
300
1:20
140
1.0
141
20.0
290
     0
  0
SCALE
  5
50
102
{ACAD_REACTORS
330
47
102
}
330
47
100
AcDbScale
 70
     0
300
1:30
140
1.0
141
30.0
290
     0
  0
SCALE
  5
51
102
{ACAD_REACTORS
330
47
102
}
330
47
100
AcDbScale
 70
     0
300
1:40
140
1.0
141
40.0
290
     0
  0
SCALE
  5
52
102
{ACAD_REACTORS
330
47
102
}
330
47
100
AcDbScale
 70
     0
300
1:50
140
1.0
141
50.0
290
     0
  0
SCALE
  5
53
102
{ACAD_REACTORS
330
47
102
}
330
47
100
AcDbScale
 70
     0
300
1:100
140
1.0
141
100.0
290
     0
  0
SCALE
  5
54
102
{ACAD_REACTORS
330
47
102
}
330
47
100
AcDbScale
 70
     0
300
2:1
140
2.0
141
1.0
290
     0
  0
SCALE
  5
55
102
{ACAD_REACTORS
330
47
102
}
330
47
100
AcDbScale
 70
     0
300
4:1
140
4.0
141
1.0
290
     0
  0
SCALE
  5
56
102
{ACAD_REACTORS
330
47
102
}
330
47
100
AcDbScale
 70
     0
300
8:1
140
8.0
141
1.0
290
     0
  0
SCALE
  5
57
102
{ACAD_REACTORS
330
47
102
}
330
47
100
AcDbScale
 70
     0
300
10:1
140
10.0
141
1.0
290
     0
  0
SCALE
  5
58
102
{ACAD_REACTORS
330
47
102
}
330
47
100
AcDbScale
 70
     0
300
100:1
140
100.0
141
1.0
290
     0
  0
SCALE
  5
59
102
{ACAD_REACTORS
330
47
102
}
330
47
100
AcDbScale
 70
     0
300
1/128" = 1'-0"
140
0.0078125
141
12.0
290
     0
  0
SCALE
  5
5A
102
{ACAD_REACTORS
330
47
102
}
330
47
100
AcDbScale
 70
     0
300
1/64" = 1'-0"
140
0.015625
141
12.0
290
     0
  0
SCALE
  5
5B
102
{ACAD_REACTORS
330
47
102
}
330
47
100
AcDbScale
 70
     0
300
1/32" = 1'-0"
140
0.03125
141
12.0
290
     0
  0
SCALE
  5
5C
102
{ACAD_REACTORS
330
47
102
}
330
47
100
AcDbScale
 70
     0
300
1/16" = 1'-0"
140
0.0625
141
12.0
290
     0
  0
SCALE
  5
5D
102
{ACAD_REACTORS
330
47
102
}
330
47
100
AcDbScale
 70
     0
300
3/32" = 1'-0"
140
0.09375
141
12.0
290
     0
  0
SCALE
  5
5E
102
{ACAD_REACTORS
330
47
102
}
330
47
100
AcDbScale
 70
     0
300
1/8" = 1'-0"
140
0.125
141
12.0
290
     0
  0
SCALE
  5
5F
102
{ACAD_REACTORS
330
47
102
}
330
47
100
AcDbScale
 70
     0
300
3/16" = 1'-0"
140
0.1875
141
12.0
290
     0
  0
SCALE
  5
60
102
{ACAD_REACTORS
330
47
102
}
330
47
100
AcDbScale
 70
     0
300
1/4" = 1'-0"
140
0.25
141
12.0
290
     0
  0
SCALE
  5
61
102
{ACAD_REACTORS
330
47
102
}
330
47
100
AcDbScale
 70
     0
300
3/8" = 1'-0"
140
0.375
141
12.0
290
     0
  0
SCALE
  5
62
102
{ACAD_REACTORS
330
47
102
}
330
47
100
AcDbScale
 70
     0
300
1/2" = 1'-0"
140
0.5
141
12.0
290
     0
  0
SCALE
  5
63
102
{ACAD_REACTORS
330
47
102
}
330
47
100
AcDbScale
 70
     0
300
3/4" = 1'-0"
140
0.75
141
12.0
290
     0
  0
SCALE
  5
64
102
{ACAD_REACTORS
330
47
102
}
330
47
100
AcDbScale
 70
     0
300
1" = 1'-0"
140
1.0
141
12.0
290
     0
  0
SCALE
  5
65
102
{ACAD_REACTORS
330
47
102
}
330
47
100
AcDbScale
 70
     0
300
1-1/2" = 1'-0"
140
1.5
141
12.0
290
     0
  0
SCALE
  5
66
102
{ACAD_REACTORS
330
47
102
}
330
47
100
AcDbScale
 70
     0
300
3" = 1'-0"
140
3.0
141
12.0
290
     0
  0
SCALE
  5
67
102
{ACAD_REACTORS
330
47
102
}
330
47
100
AcDbScale
 70
     0
300
6" = 1'-0"
140
6.0
141
12.0
290
     0
  0
SCALE
  5
68
102
{ACAD_REACTORS
330
47
102
}
330
47
100
AcDbScale
 70
     0
300
1'-0" = 1'-0"
140
12.0
141
12.0
290
     0
  0
ENDSEC
  0
EOF
